ISO-10303-21;
HEADER;
FILE_DESCRIPTION (( 'STEP AP203' ),
    '1' );
FILE_NAME ('Q-AZHWP-12.7-1030-M.STEP',
    '2020-12-22T09:06:22',
    ( '' ),
    ( '' ),
    'SwSTEP 2.0',
    'SolidWorks 2020',
    '' );
FILE_SCHEMA (( 'CONFIG_CONTROL_DESIGN' ));
ENDSEC;

DATA;
#1 = ORIENTED_EDGE ( 'NONE', *, *, #157, .F. ) ;
#2 = APPROVAL ( #153, 'UNSPECIFIED' ) ;
#3 = CARTESIAN_POINT ( 'NONE',  ( 1.500000000000000444, 6.349999999999999645, 0.000000000000000000 ) ) ;
#4 = EDGE_LOOP ( 'NONE', ( #71, #237, #137, #66 ) ) ;
#5 = CIRCLE ( 'NONE', #9, 12.69999999999999929 ) ;
#6 = DIRECTION ( 'NONE',  ( 0.000000000000000000, 0.000000000000000000, 1.000000000000000000 ) ) ;
#7 = EDGE_CURVE ( 'NONE', #313, #110, #308, .T. ) ;
#8 = EDGE_LOOP ( 'NONE', ( #112, #266, #234, #165 ) ) ;
#9 = AXIS2_PLACEMENT_3D ( 'NONE', #228, #127, #6 ) ;
#10 = PERSON_AND_ORGANIZATION ( #187, #64 ) ;
#11 = ORIENTED_EDGE ( 'NONE', *, *, #203, .F. ) ;
#12 = DIRECTION ( 'NONE',  ( -1.000000000000000000, -0.000000000000000000, -0.000000000000000000 ) ) ;
#13 = APPROVAL_DATE_TIME ( #94, #173 ) ;
#14 = ORIENTED_EDGE ( 'NONE', *, *, #157, .T. ) ;
#15 = APPROVAL ( #113, 'UNSPECIFIED' ) ;
#16 = ORIENTED_EDGE ( 'NONE', *, *, #52, .T. ) ;
#17 = DIRECTION ( 'NONE',  ( -1.000000000000000000, -0.000000000000000000, -0.000000000000000000 ) ) ;
#18 = CC_DESIGN_PERSON_AND_ORGANIZATION_ASSIGNMENT ( #61, #31, ( #298 ) ) ;
#19 = FACE_OUTER_BOUND ( 'NONE', #141, .T. ) ;
#20 = DIRECTION ( 'NONE',  ( -1.000000000000000000, -0.000000000000000000, -0.000000000000000000 ) ) ;
#21 = ADVANCED_FACE ( 'NONE', ( #154 ), #254, .F. ) ;
#22 = CC_DESIGN_APPROVAL ( #173, ( #335 ) ) ;
#23 = CARTESIAN_POINT ( 'NONE',  ( -1.614212418857619014, 0.000000000000000000, 6.349999999999999645 ) ) ;
#24 = CARTESIAN_POINT ( 'NONE',  ( -1.614212418857619014, 0.000000000000000000, 0.000000000000000000 ) ) ;
#25 = LOCAL_TIME ( 17, 6, 22.00000000000000000, #189 ) ;
#26 = LINE ( 'NONE', #309, #54 ) ;
#27 = PLANE ( 'NONE',  #69 ) ;
#28 = CIRCLE ( 'NONE', #163, 12.69999999999999929 ) ;
#29 = DATE_AND_TIME ( #256, #56 ) ;
#30 = DIRECTION ( 'NONE',  ( 0.000000000000000000, 0.000000000000000000, -1.000000000000000000 ) ) ;
#31 = PERSON_AND_ORGANIZATION_ROLE ( 'classification_officer' ) ;
#32 = EDGE_LOOP ( 'NONE', ( #14, #316, #255, #190 ) ) ;
#33 = ORIENTED_EDGE ( 'NONE', *, *, #222, .F. ) ;
#34 = DIRECTION ( 'NONE',  ( -1.000000000000000000, -0.000000000000000000, -0.000000000000000000 ) ) ;
#35 = CALENDAR_DATE ( 2020, 22, 12 ) ;
#36 = ORIENTED_EDGE ( 'NONE', *, *, #286, .F. ) ;
#37 = CARTESIAN_POINT ( 'NONE',  ( -3.000000000000000000, 6.349999999999999645, 0.000000000000000000 ) ) ;
#38 = VERTEX_POINT ( 'NONE', #230 ) ;
#39 =( NAMED_UNIT ( * ) SI_UNIT ( $, .STERADIAN. ) SOLID_ANGLE_UNIT ( ) );
#40 = EDGE_CURVE ( 'NONE', #188, #259, #5, .T. ) ;
#41 = AXIS2_PLACEMENT_3D ( 'NONE', #223, #304, #42 ) ;
#42 = DIRECTION ( 'NONE',  ( 0.000000000000000000, 0.000000000000000000, -1.000000000000000000 ) ) ;
#43 = LINE ( 'NONE', #275, #155 ) ;
#44 = AXIS2_PLACEMENT_3D ( 'NONE', #76, #123, #328 ) ;
#45 = MANIFOLD_SOLID_BREP ( 'Ðý×', #284 ) ;
#46 = DIRECTION ( 'NONE',  ( -1.000000000000000000, -0.000000000000000000, -0.000000000000000000 ) ) ;
#47 = CYLINDRICAL_SURFACE ( 'NONE', #224, 6.349999999999999645 ) ;
#48 = ADVANCED_FACE ( 'NONE', ( #111, #175 ), #314, .F. ) ;
#49 = APPROVAL_PERSON_ORGANIZATION ( #210, #2, #87 ) ;
#50 = DIRECTION ( 'NONE',  ( 0.000000000000000000, 0.000000000000000000, 1.000000000000000000 ) ) ;
#51 = ADVANCED_BREP_SHAPE_REPRESENTATION ( 'Q-AZHWP-12.7-1030-M', ( #45, #200 ), #115 ) ;
#52 = EDGE_CURVE ( 'NONE', #38, #162, #26, .T. ) ;
#53 = FACE_OUTER_BOUND ( 'NONE', #311, .T. ) ;
#54 = VECTOR ( 'NONE', #83, 1000.000000000000000 ) ;
#55 = DIRECTION ( 'NONE',  ( -0.000000000000000000, 0.000000000000000000, 1.000000000000000000 ) ) ;
#56 = LOCAL_TIME ( 17, 6, 22.00000000000000000, #185 ) ;
#57 = AXIS2_PLACEMENT_3D ( 'NONE', #271, #34, #264 ) ;
#58 = DIRECTION ( 'NONE',  ( -1.000000000000000000, -0.000000000000000000, -0.000000000000000000 ) ) ;
#59 = DATE_TIME_ROLE ( 'classification_date' ) ;
#60 = ORIENTED_EDGE ( 'NONE', *, *, #251, .F. ) ;
#61 = PERSON_AND_ORGANIZATION ( #187, #64 ) ;
#62 = EDGE_CURVE ( 'NONE', #293, #313, #143, .T. ) ;
#63 = VERTEX_POINT ( 'NONE', #183 ) ;
#64 = ORGANIZATION ( 'UNSPECIFIED', 'UNSPECIFIED', '' ) ;
#65 = PERSON_AND_ORGANIZATION ( #187, #64 ) ;
#66 = ORIENTED_EDGE ( 'NONE', *, *, #108, .F. ) ;
#67 = ORIENTED_EDGE ( 'NONE', *, *, #279, .T. ) ;
#68 = EDGE_CURVE ( 'NONE', #63, #38, #84, .T. ) ;
#69 = AXIS2_PLACEMENT_3D ( 'NONE', #3, #283, #55 ) ;
#70 = APPROVAL_ROLE ( '' ) ;
#71 = ORIENTED_EDGE ( 'NONE', *, *, #332, .T. ) ;
#72 = CYLINDRICAL_SURFACE ( 'NONE', #103, 12.69999999999999929 ) ;
#73 = ADVANCED_FACE ( 'NONE', ( #281 ), #177, .T. ) ;
#74 = CARTESIAN_POINT ( 'NONE',  ( 3.000000000000000000, 0.000000000000000000, 0.000000000000000000 ) ) ;
#75 = CARTESIAN_POINT ( 'NONE',  ( -3.000000000000000000, 0.000000000000000000, 12.69999999999999929 ) ) ;
#76 = CARTESIAN_POINT ( 'NONE',  ( -2.999999999999999556, 0.000000000000000000, 0.000000000000000000 ) ) ;
#77 = DIRECTION ( 'NONE',  ( 0.000000000000000000, 0.000000000000000000, 1.000000000000000000 ) ) ;
#78 = PRODUCT_DEFINITION ( 'UNKNOWN', '', #335, #250 ) ;
#79 = AXIS2_PLACEMENT_3D ( 'NONE', #74, #12, #191 ) ;
#80 = CC_DESIGN_PERSON_AND_ORGANIZATION_ASSIGNMENT ( #159, #192, ( #335 ) ) ;
#81 = AXIS2_PLACEMENT_3D ( 'NONE', #171, #102, #146 ) ;
#82 = CARTESIAN_POINT ( 'NONE',  ( 3.000000000000000888, 0.000000000000000000, 0.000000000000000000 ) ) ;
#83 = DIRECTION ( 'NONE',  ( -1.000000000000000000, -0.000000000000000000, -0.000000000000000000 ) ) ;
#84 = CIRCLE ( 'NONE', #235, 6.349999999999999645 ) ;
#85 = CARTESIAN_POINT ( 'NONE',  ( 3.000000000000000000, 0.000000000000000000, 0.000000000000000000 ) ) ;
#86 = CIRCLE ( 'NONE', #270, 6.349999999999999645 ) ;
#87 = APPROVAL_ROLE ( '' ) ;
#88 = DIRECTION ( 'NONE',  ( 1.000000000000000000, 0.000000000000000000, 0.000000000000000000 ) ) ;
#89 = ORIENTED_EDGE ( 'NONE', *, *, #68, .T. ) ;
#90 = VERTEX_POINT ( 'NONE', #149 ) ;
#91 = AXIS2_PLACEMENT_3D ( 'NONE', #169, #119, #148 ) ;
#92 = DATE_AND_TIME ( #261, #25 ) ;
#93 = EDGE_LOOP ( 'NONE', ( #193, #89 ) ) ;
#94 = DATE_AND_TIME ( #35, #291 ) ;
#95 = ORIENTED_EDGE ( 'NONE', *, *, #68, .F. ) ;
#96 =( LENGTH_UNIT ( ) NAMED_UNIT ( * ) SI_UNIT ( .MILLI., .METRE. ) );
#97 = DIRECTION ( 'NONE',  ( 1.000000000000000000, 0.000000000000000000, 0.000000000000000000 ) ) ;
#98 = CC_DESIGN_APPROVAL ( #2, ( #298 ) ) ;
#99 = CARTESIAN_POINT ( 'NONE',  ( 1.500000000000000888, 0.000000000000000000, 0.000000000000000000 ) ) ;
#100 = FACE_BOUND ( 'NONE', #114, .T. ) ;
#101 = EDGE_CURVE ( 'NONE', #160, #320, #28, .T. ) ;
#102 = DIRECTION ( 'NONE',  ( -1.000000000000000000, -0.000000000000000000, -0.000000000000000000 ) ) ;
#103 = AXIS2_PLACEMENT_3D ( 'NONE', #140, #301, #215 ) ;
#104 = CARTESIAN_POINT ( 'NONE',  ( -1.614212418857619014, 7.776507174585692163E-16, -6.349999999999999645 ) ) ;
#105 = LINE ( 'NONE', #179, #118 ) ;
#106 = LOCAL_TIME ( 17, 6, 22.00000000000000000, #214 ) ;
#107 = DIRECTION ( 'NONE',  ( -0.000000000000000000, 0.000000000000000000, 1.000000000000000000 ) ) ;
#108 = EDGE_CURVE ( 'NONE', #320, #259, #105, .T. ) ;
#109 = PLANE ( 'NONE',  #294 ) ;
#110 = VERTEX_POINT ( 'NONE', #282 ) ;
#111 = FACE_OUTER_BOUND ( 'NONE', #134, .T. ) ;
#112 = ORIENTED_EDGE ( 'NONE', *, *, #135, .F. ) ;
#113 = APPROVAL_STATUS ( 'not_yet_approved' ) ;
#114 = EDGE_LOOP ( 'NONE', ( #139, #36 ) ) ;
#115 =( GEOMETRIC_REPRESENTATION_CONTEXT ( 3 ) GLOBAL_UNCERTAINTY_ASSIGNED_CONTEXT ( ( #333 ) ) GLOBAL_UNIT_ASSIGNED_CONTEXT ( ( #96, #241, #39 ) ) REPRESENTATION_CONTEXT ( 'NONE', 'WORKASPACE' ) );
#116 = PERSON_AND_ORGANIZATION ( #187, #64 ) ;
#117 = ORIENTED_EDGE ( 'NONE', *, *, #218, .T. ) ;
#118 = VECTOR ( 'NONE', #232, 1000.000000000000000 ) ;
#119 = DIRECTION ( 'NONE',  ( -1.000000000000000000, -0.000000000000000000, -0.000000000000000000 ) ) ;
#120 = ADVANCED_FACE ( 'NONE', ( #53 ), #27, .F. ) ;
#121 = PERSON_AND_ORGANIZATION ( #187, #64 ) ;
#122 = DIRECTION ( 'NONE',  ( -1.000000000000000000, -0.000000000000000000, -0.000000000000000000 ) ) ;
#123 = DIRECTION ( 'NONE',  ( -1.000000000000000000, -0.000000000000000000, -0.000000000000000000 ) ) ;
#124 = DIRECTION ( 'NONE',  ( -1.000000000000000000, -0.000000000000000000, -0.000000000000000000 ) ) ;
#125 = AXIS2_PLACEMENT_3D ( 'NONE', #220, #198, #147 ) ;
#126 = ADVANCED_FACE ( 'NONE', ( #129 ), #109, .F. ) ;
#127 = DIRECTION ( 'NONE',  ( -1.000000000000000000, -0.000000000000000000, -0.000000000000000000 ) ) ;
#128 = DIRECTION ( 'NONE',  ( -1.000000000000000000, -0.000000000000000000, -0.000000000000000000 ) ) ;
#129 = FACE_OUTER_BOUND ( 'NONE', #213, .T. ) ;
#130 = DIRECTION ( 'NONE',  ( 1.000000000000000000, 0.000000000000000000, 0.000000000000000000 ) ) ;
#131 = SHAPE_DEFINITION_REPRESENTATION ( #176, #51 ) ;
#132 = DIRECTION ( 'NONE',  ( -1.000000000000000000, -0.000000000000000000, -0.000000000000000000 ) ) ;
#133 = DATE_AND_TIME ( #156, #276 ) ;
#134 = EDGE_LOOP ( 'NONE', ( #211, #151 ) ) ;
#135 = EDGE_CURVE ( 'NONE', #160, #188, #43, .T. ) ;
#136 = PERSON_AND_ORGANIZATION ( #187, #64 ) ;
#137 = ORIENTED_EDGE ( 'NONE', *, *, #279, .F. ) ;
#138 = DATE_TIME_ROLE ( 'creation_date' ) ;
#139 = ORIENTED_EDGE ( 'NONE', *, *, #218, .F. ) ;
#140 = CARTESIAN_POINT ( 'NONE',  ( -1.614212418857619014, 0.000000000000000000, 0.000000000000000000 ) ) ;
#141 = EDGE_LOOP ( 'NONE', ( #11, #253, #206, #117 ) ) ;
#142 = CC_DESIGN_DATE_AND_TIME_ASSIGNMENT ( #92, #138, ( #78 ) ) ;
#143 = CIRCLE ( 'NONE', #310, 6.349999999999999645 ) ;
#144 = DIRECTION ( 'NONE',  ( 0.000000000000000000, 0.000000000000000000, 1.000000000000000000 ) ) ;
#145 = CIRCLE ( 'NONE', #201, 6.349999999999999645 ) ;
#146 = DIRECTION ( 'NONE',  ( 0.000000000000000000, 0.000000000000000000, 1.000000000000000000 ) ) ;
#147 = DIRECTION ( 'NONE',  ( 0.000000000000000000, 0.000000000000000000, 1.000000000000000000 ) ) ;
#148 = DIRECTION ( 'NONE',  ( 0.000000000000000000, 0.000000000000000000, 1.000000000000000000 ) ) ;
#149 = CARTESIAN_POINT ( 'NONE',  ( 1.500000000000000888, 7.776507174585692163E-16, -6.349999999999999645 ) ) ;
#150 = DIRECTION ( 'NONE',  ( 0.000000000000000000, 0.000000000000000000, 1.000000000000000000 ) ) ;
#151 = ORIENTED_EDGE ( 'NONE', *, *, #101, .F. ) ;
#152 = CARTESIAN_POINT ( 'NONE',  ( -1.500000000000000444, 6.349999999999999645, 0.000000000000000000 ) ) ;
#153 = APPROVAL_STATUS ( 'not_yet_approved' ) ;
#154 = FACE_OUTER_BOUND ( 'NONE', #269, .T. ) ;
#155 = VECTOR ( 'NONE', #124, 1000.000000000000000 ) ;
#156 = CALENDAR_DATE ( 2020, 22, 12 ) ;
#157 = EDGE_CURVE ( 'NONE', #313, #293, #229, .T. ) ;
#158 = EDGE_LOOP ( 'NONE', ( #95, #296, #209, #186 ) ) ;
#159 = PERSON_AND_ORGANIZATION ( #187, #64 ) ;
#160 = VERTEX_POINT ( 'NONE', #221 ) ;
#161 = PERSON_AND_ORGANIZATION_ROLE ( 'creator' ) ;
#162 = VERTEX_POINT ( 'NONE', #278 ) ;
#163 = AXIS2_PLACEMENT_3D ( 'NONE', #85, #132, #150 ) ;
#164 = DIRECTION ( 'NONE',  ( 0.000000000000000000, 0.000000000000000000, -1.000000000000000000 ) ) ;
#165 = ORIENTED_EDGE ( 'NONE', *, *, #40, .F. ) ;
#166 = AXIS2_PLACEMENT_3D ( 'NONE', #168, #302, #249 ) ;
#167 = APPLICATION_PROTOCOL_DEFINITION ( 'international standard', 'config_control_design', 1994, #233 ) ;
#168 = CARTESIAN_POINT ( 'NONE',  ( -3.000000000000000000, 0.000000000000000000, 0.000000000000000000 ) ) ;
#169 = CARTESIAN_POINT ( 'NONE',  ( -2.999999999999999556, 0.000000000000000000, 0.000000000000000000 ) ) ;
#170 = VECTOR ( 'NONE', #17, 1000.000000000000000 ) ;
#171 = CARTESIAN_POINT ( 'NONE',  ( -1.614212418857619014, 0.000000000000000000, 0.000000000000000000 ) ) ;
#172 = DIRECTION ( 'NONE',  ( 0.000000000000000000, 0.000000000000000000, -1.000000000000000000 ) ) ;
#173 = APPROVAL ( #212, 'UNSPECIFIED' ) ;
#174 = CIRCLE ( 'NONE', #44, 6.349999999999999645 ) ;
#175 = FACE_BOUND ( 'NONE', #93, .T. ) ;
#176 = PRODUCT_DEFINITION_SHAPE ( 'NONE', 'NONE',  #78 ) ;
#177 = CYLINDRICAL_SURFACE ( 'NONE', #205, 12.69999999999999929 ) ;
#178 = AXIS2_PLACEMENT_3D ( 'NONE', #226, #207, #107 ) ;
#179 = CARTESIAN_POINT ( 'NONE',  ( -1.614212418857619014, 0.000000000000000000, 12.69999999999999929 ) ) ;
#180 = CARTESIAN_POINT ( 'NONE',  ( -1.614212418857619014, 0.000000000000000000, 0.000000000000000000 ) ) ;
#181 = APPROVAL_PERSON_ORGANIZATION ( #65, #173, #292 ) ;
#182 = COORDINATED_UNIVERSAL_TIME_OFFSET ( 8, 0, .AHEAD. ) ;
#183 = CARTESIAN_POINT ( 'NONE',  ( 3.000000000000000888, 7.776507174585692163E-16, -6.349999999999999645 ) ) ;
#184 = ADVANCED_FACE ( 'NONE', ( #19 ), #47, .F. ) ;
#185 = COORDINATED_UNIVERSAL_TIME_OFFSET ( 8, 0, .AHEAD. ) ;
#186 = ORIENTED_EDGE ( 'NONE', *, *, #52, .F. ) ;
#187 = PERSON ( 'UNSPECIFIED', 'UNSPECIFIED', 'UNSPECIFIED', ('UNSPECIFIED'), ('UNSPECIFIED'), ('UNSPECIFIED') ) ;
#188 = VERTEX_POINT ( 'NONE', #277 ) ;
#189 = COORDINATED_UNIVERSAL_TIME_OFFSET ( 8, 0, .AHEAD. ) ;
#190 = ORIENTED_EDGE ( 'NONE', *, *, #7, .F. ) ;
#191 = DIRECTION ( 'NONE',  ( 0.000000000000000000, 0.000000000000000000, 1.000000000000000000 ) ) ;
#192 = PERSON_AND_ORGANIZATION_ROLE ( 'design_supplier' ) ;
#193 = ORIENTED_EDGE ( 'NONE', *, *, #251, .T. ) ;
#194 = ADVANCED_FACE ( 'NONE', ( #331 ), #247, .F. ) ;
#195 = LINE ( 'NONE', #104, #274 ) ;
#196 = CC_DESIGN_PERSON_AND_ORGANIZATION_ASSIGNMENT ( #116, #319, ( #335 ) ) ;
#197 = APPLICATION_PROTOCOL_DEFINITION ( 'international standard', 'config_control_design', 1994, #288 ) ;
#198 = DIRECTION ( 'NONE',  ( -1.000000000000000000, -0.000000000000000000, -0.000000000000000000 ) ) ;
#199 = PLANE ( 'NONE',  #305 ) ;
#200 = AXIS2_PLACEMENT_3D ( 'NONE', #297, #244, #97 ) ;
#201 = AXIS2_PLACEMENT_3D ( 'NONE', #300, #20, #144 ) ;
#202 = CARTESIAN_POINT ( 'NONE',  ( -1.500000000000000444, 7.776507174585692163E-16, -6.349999999999999645 ) ) ;
#203 = EDGE_CURVE ( 'NONE', #293, #242, #195, .T. ) ;
#204 = DIRECTION ( 'NONE',  ( 0.000000000000000000, 0.000000000000000000, 1.000000000000000000 ) ) ;
#205 = AXIS2_PLACEMENT_3D ( 'NONE', #180, #334, #50 ) ;
#206 = ORIENTED_EDGE ( 'NONE', *, *, #7, .T. ) ;
#207 = DIRECTION ( 'NONE',  ( -1.000000000000000000, 0.000000000000000000, -0.000000000000000000 ) ) ;
#208 = APPROVAL_DATE_TIME ( #29, #2 ) ;
#209 = ORIENTED_EDGE ( 'NONE', *, *, #231, .T. ) ;
#210 = PERSON_AND_ORGANIZATION ( #187, #64 ) ;
#211 = ORIENTED_EDGE ( 'NONE', *, *, #332, .F. ) ;
#212 = APPROVAL_STATUS ( 'not_yet_approved' ) ;
#213 = EDGE_LOOP ( 'NONE', ( #1, #239 ) ) ;
#214 = COORDINATED_UNIVERSAL_TIME_OFFSET ( 8, 0, .AHEAD. ) ;
#215 = DIRECTION ( 'NONE',  ( 0.000000000000000000, 0.000000000000000000, 1.000000000000000000 ) ) ;
#216 = FACE_OUTER_BOUND ( 'NONE', #8, .T. ) ;
#217 = LINE ( 'NONE', #245, #170 ) ;
#218 = EDGE_CURVE ( 'NONE', #110, #242, #243, .T. ) ;
#219 = CIRCLE ( 'NONE', #125, 6.349999999999999645 ) ;
#220 = CARTESIAN_POINT ( 'NONE',  ( 1.500000000000000888, 0.000000000000000000, 0.000000000000000000 ) ) ;
#221 = CARTESIAN_POINT ( 'NONE',  ( 3.000000000000000000, 1.555301434917138433E-15, -12.69999999999999929 ) ) ;
#222 = EDGE_CURVE ( 'NONE', #162, #90, #86, .T. ) ;
#223 = CARTESIAN_POINT ( 'NONE',  ( -1.500000000000000444, 0.000000000000000000, 0.000000000000000000 ) ) ;
#224 = AXIS2_PLACEMENT_3D ( 'NONE', #329, #122, #77 ) ;
#225 = PRODUCT ( 'Q-AZHWP-12.7-1030-M', 'Q-AZHWP-12.7-1030-M', '', ( #246 ) ) ;
#226 = CARTESIAN_POINT ( 'NONE',  ( 3.000000000000000000, 12.69999999999999929, 0.000000000000000000 ) ) ;
#227 = EDGE_LOOP ( 'NONE', ( #67, #262 ) ) ;
#228 = CARTESIAN_POINT ( 'NONE',  ( -3.000000000000000000, 0.000000000000000000, 0.000000000000000000 ) ) ;
#229 = CIRCLE ( 'NONE', #41, 6.349999999999999645 ) ;
#230 = CARTESIAN_POINT ( 'NONE',  ( 3.000000000000000888, 0.000000000000000000, 6.349999999999999645 ) ) ;
#231 = EDGE_CURVE ( 'NONE', #90, #162, #219, .T. ) ;
#232 = DIRECTION ( 'NONE',  ( -1.000000000000000000, -0.000000000000000000, -0.000000000000000000 ) ) ;
#233 = APPLICATION_CONTEXT ( 'configuration controlled 3d designs of mechanical parts and assemblies' ) ;
#234 = ORIENTED_EDGE ( 'NONE', *, *, #108, .T. ) ;
#235 = AXIS2_PLACEMENT_3D ( 'NONE', #82, #128, #258 ) ;
#236 = DATE_AND_TIME ( #265, #106 ) ;
#237 = ORIENTED_EDGE ( 'NONE', *, *, #135, .T. ) ;
#238 = COORDINATED_UNIVERSAL_TIME_OFFSET ( 8, 0, .AHEAD. ) ;
#239 = ORIENTED_EDGE ( 'NONE', *, *, #62, .F. ) ;
#240 = APPROVAL_PERSON_ORGANIZATION ( #136, #15, #70 ) ;
#241 =( NAMED_UNIT ( * ) PLANE_ANGLE_UNIT ( ) SI_UNIT ( $, .RADIAN. ) );
#242 = VERTEX_POINT ( 'NONE', #248 ) ;
#243 = CIRCLE ( 'NONE', #91, 6.349999999999999645 ) ;
#244 = DIRECTION ( 'NONE',  ( 0.000000000000000000, 0.000000000000000000, 1.000000000000000000 ) ) ;
#245 = CARTESIAN_POINT ( 'NONE',  ( -1.614212418857619014, 7.776507174585692163E-16, -6.349999999999999645 ) ) ;
#246 = MECHANICAL_CONTEXT ( 'NONE', #233, 'mechanical' ) ;
#247 = CYLINDRICAL_SURFACE ( 'NONE', #81, 6.349999999999999645 ) ;
#248 = CARTESIAN_POINT ( 'NONE',  ( -2.999999999999999556, 7.776507174585692163E-16, -6.349999999999999645 ) ) ;
#249 = DIRECTION ( 'NONE',  ( 0.000000000000000000, 0.000000000000000000, 1.000000000000000000 ) ) ;
#250 = DESIGN_CONTEXT ( 'detailed design', #288, 'design' ) ;
#251 = EDGE_CURVE ( 'NONE', #38, #63, #145, .T. ) ;
#252 = CARTESIAN_POINT ( 'NONE',  ( -1.500000000000000444, 0.000000000000000000, 0.000000000000000000 ) ) ;
#253 = ORIENTED_EDGE ( 'NONE', *, *, #62, .T. ) ;
#254 = CYLINDRICAL_SURFACE ( 'NONE', #290, 6.349999999999999645 ) ;
#255 = ORIENTED_EDGE ( 'NONE', *, *, #286, .T. ) ;
#256 = CALENDAR_DATE ( 2020, 22, 12 ) ;
#257 = CC_DESIGN_PERSON_AND_ORGANIZATION_ASSIGNMENT ( #10, #161, ( #78 ) ) ;
#258 = DIRECTION ( 'NONE',  ( 0.000000000000000000, 0.000000000000000000, 1.000000000000000000 ) ) ;
#259 = VERTEX_POINT ( 'NONE', #75 ) ;
#260 = CC_DESIGN_APPROVAL ( #15, ( #78 ) ) ;
#261 = CALENDAR_DATE ( 2020, 22, 12 ) ;
#262 = ORIENTED_EDGE ( 'NONE', *, *, #40, .T. ) ;
#263 = PRODUCT_RELATED_PRODUCT_CATEGORY ( 'detail', '', ( #225 ) ) ;
#264 = DIRECTION ( 'NONE',  ( 0.000000000000000000, 0.000000000000000000, 1.000000000000000000 ) ) ;
#265 = CALENDAR_DATE ( 2020, 22, 12 ) ;
#266 = ORIENTED_EDGE ( 'NONE', *, *, #101, .T. ) ;
#267 = VECTOR ( 'NONE', #287, 1000.000000000000000 ) ;
#268 = CYLINDRICAL_SURFACE ( 'NONE', #57, 6.349999999999999645 ) ;
#269 = EDGE_LOOP ( 'NONE', ( #289, #60, #16, #318 ) ) ;
#270 = AXIS2_PLACEMENT_3D ( 'NONE', #99, #326, #306 ) ;
#271 = CARTESIAN_POINT ( 'NONE',  ( -1.614212418857619014, 0.000000000000000000, 0.000000000000000000 ) ) ;
#272 = CC_DESIGN_PERSON_AND_ORGANIZATION_ASSIGNMENT ( #121, #325, ( #225 ) ) ;
#273 = DIRECTION ( 'NONE',  ( 1.000000000000000000, 0.000000000000000000, 0.000000000000000000 ) ) ;
#274 = VECTOR ( 'NONE', #46, 1000.000000000000000 ) ;
#275 = CARTESIAN_POINT ( 'NONE',  ( -1.614212418857619014, 1.555301434917138433E-15, -12.69999999999999929 ) ) ;
#276 = LOCAL_TIME ( 17, 6, 22.00000000000000000, #182 ) ;
#277 = CARTESIAN_POINT ( 'NONE',  ( -3.000000000000000000, 1.555301434917138433E-15, -12.69999999999999929 ) ) ;
#278 = CARTESIAN_POINT ( 'NONE',  ( 1.500000000000000888, 0.000000000000000000, 6.349999999999999645 ) ) ;
#279 = EDGE_CURVE ( 'NONE', #259, #188, #312, .T. ) ;
#280 = CC_DESIGN_SECURITY_CLASSIFICATION ( #298, ( #335 ) ) ;
#281 = FACE_OUTER_BOUND ( 'NONE', #4, .T. ) ;
#282 = CARTESIAN_POINT ( 'NONE',  ( -2.999999999999999556, 0.000000000000000000, 6.349999999999999645 ) ) ;
#283 = DIRECTION ( 'NONE',  ( -1.000000000000000000, 0.000000000000000000, -0.000000000000000000 ) ) ;
#284 = CLOSED_SHELL ( 'NONE', ( #73, #322, #194, #120, #21, #184, #307, #315, #48, #126 ) ) ;
#285 = ORIENTED_EDGE ( 'NONE', *, *, #231, .F. ) ;
#286 = EDGE_CURVE ( 'NONE', #242, #110, #174, .T. ) ;
#287 = DIRECTION ( 'NONE',  ( -1.000000000000000000, -0.000000000000000000, -0.000000000000000000 ) ) ;
#288 = APPLICATION_CONTEXT ( 'configuration controlled 3d designs of mechanical parts and assemblies' ) ;
#289 = ORIENTED_EDGE ( 'NONE', *, *, #303, .F. ) ;
#290 = AXIS2_PLACEMENT_3D ( 'NONE', #24, #58, #204 ) ;
#291 = LOCAL_TIME ( 17, 6, 22.00000000000000000, #238 ) ;
#292 = APPROVAL_ROLE ( '' ) ;
#293 = VERTEX_POINT ( 'NONE', #202 ) ;
#294 = AXIS2_PLACEMENT_3D ( 'NONE', #152, #130, #172 ) ;
#295 = SECURITY_CLASSIFICATION_LEVEL ( 'unclassified' ) ;
#296 = ORIENTED_EDGE ( 'NONE', *, *, #303, .T. ) ;
#297 = CARTESIAN_POINT ( 'NONE',  ( 0.000000000000000000, 0.000000000000000000, 0.000000000000000000 ) ) ;
#298 = SECURITY_CLASSIFICATION ( '', '', #295 ) ;
#299 = FACE_OUTER_BOUND ( 'NONE', #32, .T. ) ;
#300 = CARTESIAN_POINT ( 'NONE',  ( 3.000000000000000888, 0.000000000000000000, 0.000000000000000000 ) ) ;
#301 = DIRECTION ( 'NONE',  ( -1.000000000000000000, -0.000000000000000000, -0.000000000000000000 ) ) ;
#302 = DIRECTION ( 'NONE',  ( -1.000000000000000000, -0.000000000000000000, -0.000000000000000000 ) ) ;
#303 = EDGE_CURVE ( 'NONE', #63, #90, #217, .T. ) ;
#304 = DIRECTION ( 'NONE',  ( 1.000000000000000000, 0.000000000000000000, 0.000000000000000000 ) ) ;
#305 = AXIS2_PLACEMENT_3D ( 'NONE', #37, #273, #164 ) ;
#306 = DIRECTION ( 'NONE',  ( 0.000000000000000000, 0.000000000000000000, 1.000000000000000000 ) ) ;
#307 = ADVANCED_FACE ( 'NONE', ( #100, #324 ), #199, .F. ) ;
#308 = LINE ( 'NONE', #23, #267 ) ;
#309 = CARTESIAN_POINT ( 'NONE',  ( -1.614212418857619014, 0.000000000000000000, 6.349999999999999645 ) ) ;
#310 = AXIS2_PLACEMENT_3D ( 'NONE', #252, #88, #30 ) ;
#311 = EDGE_LOOP ( 'NONE', ( #33, #285 ) ) ;
#312 = CIRCLE ( 'NONE', #166, 12.69999999999999929 ) ;
#313 = VERTEX_POINT ( 'NONE', #323 ) ;
#314 = PLANE ( 'NONE',  #178 ) ;
#315 = ADVANCED_FACE ( 'NONE', ( #216 ), #72, .T. ) ;
#316 = ORIENTED_EDGE ( 'NONE', *, *, #203, .T. ) ;
#317 = APPROVAL_DATE_TIME ( #236, #15 ) ;
#318 = ORIENTED_EDGE ( 'NONE', *, *, #222, .T. ) ;
#319 = PERSON_AND_ORGANIZATION_ROLE ( 'creator' ) ;
#320 = VERTEX_POINT ( 'NONE', #321 ) ;
#321 = CARTESIAN_POINT ( 'NONE',  ( 3.000000000000000000, 0.000000000000000000, 12.69999999999999929 ) ) ;
#322 = ADVANCED_FACE ( 'NONE', ( #299 ), #268, .F. ) ;
#323 = CARTESIAN_POINT ( 'NONE',  ( -1.500000000000000444, 0.000000000000000000, 6.349999999999999645 ) ) ;
#324 = FACE_OUTER_BOUND ( 'NONE', #227, .T. ) ;
#325 = PERSON_AND_ORGANIZATION_ROLE ( 'design_owner' ) ;
#326 = DIRECTION ( 'NONE',  ( -1.000000000000000000, -0.000000000000000000, -0.000000000000000000 ) ) ;
#327 = CC_DESIGN_DATE_AND_TIME_ASSIGNMENT ( #133, #59, ( #298 ) ) ;
#328 = DIRECTION ( 'NONE',  ( 0.000000000000000000, 0.000000000000000000, 1.000000000000000000 ) ) ;
#329 = CARTESIAN_POINT ( 'NONE',  ( -1.614212418857619014, 0.000000000000000000, 0.000000000000000000 ) ) ;
#330 = CIRCLE ( 'NONE', #79, 12.69999999999999929 ) ;
#331 = FACE_OUTER_BOUND ( 'NONE', #158, .T. ) ;
#332 = EDGE_CURVE ( 'NONE', #320, #160, #330, .T. ) ;
#333 = UNCERTAINTY_MEASURE_WITH_UNIT (LENGTH_MEASURE( 1.000000000000000082E-05 ), #96, 'distance_accuracy_value', 'NONE');
#334 = DIRECTION ( 'NONE',  ( -1.000000000000000000, -0.000000000000000000, -0.000000000000000000 ) ) ;
#335 = PRODUCT_DEFINITION_FORMATION_WITH_SPECIFIED_SOURCE ( 'ANY', '', #225, .NOT_KNOWN. ) ;
ENDSEC;
END-ISO-10303-21;
